User Tag List

Informational! Informational!:  0
Likes Likes:  0
Results 1 to 3 of 3

Thread: To all you guitar players out there

  1. #1

    Join Date
    Jun 2002
    Posts
    1,272
    Mentioned
    0 Post(s)
    Tagged
    0 Thread(s)

    Post

    Well, I know the song is an emabarassment in any guitar store, but it sure is fun to play the solo... Sound familiar?
    You guessed it!

    Deep Purple in Smoke on the Water. I was wondering what your opinion on the riff that is so popular to change the TAB for?

    The most common that I see are:

    e|-------------------------------------------:|
    B|-------------------------------------------:|
    G|------3--5-----3--6--5-----3--5--3---------:|
    D|---5--3--5--5--3--6--5--5--3--5--3--5------:|
    A|---5--------5-----------5-----------5------:|
    E|-------------------------------------------:|

    and then the SUPER easy embarassment:

    E|------------------------------------------
    B|-------------------------------------------
    G|--------------------------------------------
    D|--5---8---10---5--8--11-10--5--8--10--8--5
    A|--5---8---10---5--8--11-10--5--8--10--8--5
    E|---------------------------------------------

    Anyone know or care? [img]http://www.**********.com/iB_html/non-cgi/emoticons/new/smilie4.gif[/img]

    ~LM~
    I am back..

  2. #2

    Join Date
    Jul 2003
    Location
    central upstate New York
    Posts
    439
    Mentioned
    0 Post(s)
    Tagged
    0 Thread(s)

    Arrow

    I interrupted a jam to get this --
    From George - Looks like you put a lot of work in on this. We'd be happy to see anything else you can bring. It's more for bass.
    From Tamlin - Not suited well for acoustic.
    [img]http://www.**********.com/iB_html/non-cgi/emoticons/laugh.gif[/img]
    Restore our biosphere, create a new culture of kindness.

  3. #3

    Join Date
    Jun 2002
    Posts
    1,272
    Mentioned
    0 Post(s)
    Tagged
    0 Thread(s)

    Post

    Gotta love it! [img]http://www.**********.com/iB_html/non-cgi/emoticons/new/smile_n_32.gif[/img]
    I am back..

Tags for this Thread

Posting Permissions

  • You may not post new threads
  • You may not post replies
  • You may not post attachments
  • You may not edit your posts
  •